ISO-10303-21;
HEADER;
FILE_DESCRIPTION (( 'STEP AP203' ),
    '1' );
FILE_NAME ('MHWP-25.4-532.STEP',
    '2020-12-22T09:26:29',
    ( '' ),
    ( '' ),
    'SwSTEP 2.0',
    'SolidWorks 2020',
    '' );
FILE_SCHEMA (( 'CONFIG_CONTROL_DESIGN' ));
ENDSEC;

DATA;
#1 = VERTEX_POINT ( 'NONE', #129 ) ;
#2 = CARTESIAN_POINT ( 'NONE',  ( -1.187907395172932594E-15, 0.000000000000000000, 12.69999999999999929 ) ) ;
#3 = MANIFOLD_SOLID_BREP ( 'Ðý×', #172 ) ;
#4 = DIRECTION ( 'NONE',  ( 1.000000000000000000, 0.000000000000000000, 0.000000000000000000 ) ) ;
#5 = CYLINDRICAL_SURFACE ( 'NONE', #68, 12.69999999999999929 ) ;
#6 = DIRECTION ( 'NONE',  ( 1.000000000000000000, 0.000000000000000000, 0.000000000000000000 ) ) ;
#7 = APPROVAL_STATUS ( 'not_yet_approved' ) ;
#8 = PERSON_AND_ORGANIZATION ( #162, #79 ) ;
#9 = CIRCLE ( 'NONE', #50, 12.69999999999999929 ) ;
#10 = DATE_AND_TIME ( #119, #59 ) ;
#11 = AXIS2_PLACEMENT_3D ( 'NONE', #139, #41, #96 ) ;
#12 = VERTEX_POINT ( 'NONE', #2 ) ;
#13 = LOCAL_TIME ( 17, 26, 29.00000000000000000, #31 ) ;
#14 =( NAMED_UNIT ( * ) PLANE_ANGLE_UNIT ( ) SI_UNIT ( $, .RADIAN. ) );
#15 = CARTESIAN_POINT ( 'NONE',  ( -1.187907395172932594E-15, 0.000000000000000000, 0.000000000000000000 ) ) ;
#16 = CARTESIAN_POINT ( 'NONE',  ( -5.939536975864662969E-16, 12.69999999999999929, 0.000000000000000000 ) ) ;
#17 = DIRECTION ( 'NONE',  ( -1.000000000000000000, 0.000000000000000000, -0.000000000000000000 ) ) ;
#18 = CALENDAR_DATE ( 2020, 22, 12 ) ;
#19 = PRODUCT_DEFINITION_FORMATION_WITH_SPECIFIED_SOURCE ( 'ANY', '', #107, .NOT_KNOWN. ) ;
#20 = APPROVAL_DATE_TIME ( #133, #151 ) ;
#21 = CALENDAR_DATE ( 2020, 22, 12 ) ;
#22 = PERSON_AND_ORGANIZATION ( #162, #79 ) ;
#23 = VERTEX_POINT ( 'NONE', #98 ) ;
#24 = CC_DESIGN_DATE_AND_TIME_ASSIGNMENT ( #48, #105, ( #92 ) ) ;
#25 = DIRECTION ( 'NONE',  ( -1.000000000000000000, -0.000000000000000000, -0.000000000000000000 ) ) ;
#26 = FACE_OUTER_BOUND ( 'NONE', #175, .T. ) ;
#27 = PERSON_AND_ORGANIZATION ( #162, #79 ) ;
#28 = UNCERTAINTY_MEASURE_WITH_UNIT (LENGTH_MEASURE( 1.000000000000000082E-05 ), #38, 'distance_accuracy_value', 'NONE');
#29 = APPROVAL_PERSON_ORGANIZATION ( #74, #73, #102 ) ;
#30 =( NAMED_UNIT ( * ) SI_UNIT ( $, .STERADIAN. ) SOLID_ANGLE_UNIT ( ) );
#31 = COORDINATED_UNIVERSAL_TIME_OFFSET ( 8, 0, .AHEAD. ) ;
#32 = APPROVAL_DATE_TIME ( #101, #94 ) ;
#33 = EDGE_CURVE ( 'NONE', #1, #12, #118, .T. ) ;
#34 = AXIS2_PLACEMENT_3D ( 'NONE', #144, #17, #67 ) ;
#35 = ORIENTED_EDGE ( 'NONE', *, *, #33, .T. ) ;
#36 = AXIS2_PLACEMENT_3D ( 'NONE', #154, #112, #37 ) ;
#37 = DIRECTION ( 'NONE',  ( 0.000000000000000000, 0.000000000000000000, 1.000000000000000000 ) ) ;
#38 =( LENGTH_UNIT ( ) NAMED_UNIT ( * ) SI_UNIT ( .MILLI., .METRE. ) );
#39 = APPROVAL_PERSON_ORGANIZATION ( #27, #151, #134 ) ;
#40 = CC_DESIGN_APPROVAL ( #94, ( #127 ) ) ;
#41 = DIRECTION ( 'NONE',  ( -1.000000000000000000, -0.000000000000000000, -0.000000000000000000 ) ) ;
#42 = CARTESIAN_POINT ( 'NONE',  ( 0.000000000000000000, 0.000000000000000000, 12.69999999999999929 ) ) ;
#43 = CARTESIAN_POINT ( 'NONE',  ( 0.000000000000000000, 1.555301434917138433E-15, -12.69999999999999929 ) ) ;
#44 = LOCAL_TIME ( 17, 26, 29.00000000000000000, #150 ) ;
#45 = APPROVAL_STATUS ( 'not_yet_approved' ) ;
#46 = CC_DESIGN_SECURITY_CLASSIFICATION ( #92, ( #19 ) ) ;
#47 = CALENDAR_DATE ( 2020, 22, 12 ) ;
#48 = DATE_AND_TIME ( #171, #115 ) ;
#49 = EDGE_LOOP ( 'NONE', ( #66, #109, #75, #120 ) ) ;
#50 = AXIS2_PLACEMENT_3D ( 'NONE', #15, #128, #155 ) ;
#51 = ORIENTED_EDGE ( 'NONE', *, *, #61, .T. ) ;
#52 = DIRECTION ( 'NONE',  ( -1.000000000000000000, -0.000000000000000000, -0.000000000000000000 ) ) ;
#53 = PERSON_AND_ORGANIZATION_ROLE ( 'creator' ) ;
#54 = APPLICATION_CONTEXT ( 'configuration controlled 3d designs of mechanical parts and assemblies' ) ;
#55 = DATE_AND_TIME ( #21, #44 ) ;
#56 = COORDINATED_UNIVERSAL_TIME_OFFSET ( 8, 0, .AHEAD. ) ;
#57 = VECTOR ( 'NONE', #97, 1000.000000000000000 ) ;
#58 = ADVANCED_BREP_SHAPE_REPRESENTATION ( 'MHWP-25.4-532', ( #3, #126 ), #99 ) ;
#59 = LOCAL_TIME ( 17, 26, 29.00000000000000000, #56 ) ;
#60 = ORIENTED_EDGE ( 'NONE', *, *, #80, .T. ) ;
#61 = EDGE_CURVE ( 'NONE', #12, #1, #9, .T. ) ;
#62 = VERTEX_POINT ( 'NONE', #111 ) ;
#63 = CC_DESIGN_PERSON_AND_ORGANIZATION_ASSIGNMENT ( #90, #116, ( #19 ) ) ;
#64 = EDGE_CURVE ( 'NONE', #62, #1, #81, .T. ) ;
#65 = DIRECTION ( 'NONE',  ( -1.000000000000000000, -0.000000000000000000, -0.000000000000000000 ) ) ;
#66 = ORIENTED_EDGE ( 'NONE', *, *, #121, .T. ) ;
#67 = DIRECTION ( 'NONE',  ( -0.000000000000000000, 0.000000000000000000, 1.000000000000000000 ) ) ;
#68 = AXIS2_PLACEMENT_3D ( 'NONE', #114, #25, #138 ) ;
#69 = PERSON_AND_ORGANIZATION_ROLE ( 'design_supplier' ) ;
#70 = APPLICATION_PROTOCOL_DEFINITION ( 'international standard', 'config_control_design', 1994, #110 ) ;
#71 = EDGE_CURVE ( 'NONE', #62, #23, #104, .T. ) ;
#72 = APPLICATION_PROTOCOL_DEFINITION ( 'international standard', 'config_control_design', 1994, #54 ) ;
#73 = APPROVAL ( #45, 'UNSPECIFIED' ) ;
#74 = PERSON_AND_ORGANIZATION ( #162, #79 ) ;
#75 = ORIENTED_EDGE ( 'NONE', *, *, #61, .F. ) ;
#76 = AXIS2_PLACEMENT_3D ( 'NONE', #95, #52, #168 ) ;
#77 = AXIS2_PLACEMENT_3D ( 'NONE', #16, #4, #157 ) ;
#78 = LINE ( 'NONE', #42, #57 ) ;
#79 = ORGANIZATION ( 'UNSPECIFIED', 'UNSPECIFIED', '' ) ;
#80 = EDGE_CURVE ( 'NONE', #23, #12, #78, .T. ) ;
#81 = LINE ( 'NONE', #43, #159 ) ;
#82 = ORIENTED_EDGE ( 'NONE', *, *, #33, .F. ) ;
#83 = PRODUCT_RELATED_PRODUCT_CATEGORY ( 'detail', '', ( #107 ) ) ;
#84 = EDGE_LOOP ( 'NONE', ( #122, #113, #60, #82 ) ) ;
#85 = PLANE ( 'NONE',  #34 ) ;
#86 = ADVANCED_FACE ( 'NONE', ( #125 ), #140, .T. ) ;
#87 = APPROVAL_DATE_TIME ( #10, #73 ) ;
#88 = PERSON_AND_ORGANIZATION ( #162, #79 ) ;
#89 = AXIS2_PLACEMENT_3D ( 'NONE', #156, #65, #142 ) ;
#90 = PERSON_AND_ORGANIZATION ( #162, #79 ) ;
#91 = CARTESIAN_POINT ( 'NONE',  ( 0.000000000000000000, 0.000000000000000000, 0.000000000000000000 ) ) ;
#92 = SECURITY_CLASSIFICATION ( '', '', #148 ) ;
#93 = ORIENTED_EDGE ( 'NONE', *, *, #71, .F. ) ;
#94 = APPROVAL ( #7, 'UNSPECIFIED' ) ;
#95 = CARTESIAN_POINT ( 'NONE',  ( 1.999999999999998224, 0.000000000000000000, 0.000000000000000000 ) ) ;
#96 = DIRECTION ( 'NONE',  ( 0.000000000000000000, 0.000000000000000000, 1.000000000000000000 ) ) ;
#97 = DIRECTION ( 'NONE',  ( -1.000000000000000000, -0.000000000000000000, -0.000000000000000000 ) ) ;
#98 = CARTESIAN_POINT ( 'NONE',  ( 1.999999999999998224, 0.000000000000000000, 12.69999999999999929 ) ) ;
#99 =( GEOMETRIC_REPRESENTATION_CONTEXT ( 3 ) GLOBAL_UNCERTAINTY_ASSIGNED_CONTEXT ( ( #28 ) ) GLOBAL_UNIT_ASSIGNED_CONTEXT ( ( #38, #14, #30 ) ) REPRESENTATION_CONTEXT ( 'NONE', 'WORKASPACE' ) );
#100 = DATE_TIME_ROLE ( 'creation_date' ) ;
#101 = DATE_AND_TIME ( #47, #13 ) ;
#102 = APPROVAL_ROLE ( '' ) ;
#103 = APPROVAL_PERSON_ORGANIZATION ( #132, #94, #130 ) ;
#104 = CIRCLE ( 'NONE', #11, 12.69999999999999929 ) ;
#105 = DATE_TIME_ROLE ( 'classification_date' ) ;
#106 = DIRECTION ( 'NONE',  ( 0.000000000000000000, 0.000000000000000000, 1.000000000000000000 ) ) ;
#107 = PRODUCT ( 'MHWP-25.4-532', 'MHWP-25.4-532', '', ( #161 ) ) ;
#108 = ADVANCED_FACE ( 'NONE', ( #165 ), #123, .F. ) ;
#109 = ORIENTED_EDGE ( 'NONE', *, *, #64, .T. ) ;
#110 = APPLICATION_CONTEXT ( 'configuration controlled 3d designs of mechanical parts and assemblies' ) ;
#111 = CARTESIAN_POINT ( 'NONE',  ( 1.999999999999998224, 1.555301434917138433E-15, -12.69999999999999929 ) ) ;
#112 = DIRECTION ( 'NONE',  ( -1.000000000000000000, -0.000000000000000000, -0.000000000000000000 ) ) ;
#113 = ORIENTED_EDGE ( 'NONE', *, *, #71, .T. ) ;
#114 = CARTESIAN_POINT ( 'NONE',  ( 0.000000000000000000, 0.000000000000000000, 0.000000000000000000 ) ) ;
#115 = LOCAL_TIME ( 17, 26, 29.00000000000000000, #146 ) ;
#116 = PERSON_AND_ORGANIZATION_ROLE ( 'creator' ) ;
#117 = PERSON_AND_ORGANIZATION ( #162, #79 ) ;
#118 = CIRCLE ( 'NONE', #36, 12.69999999999999929 ) ;
#119 = CALENDAR_DATE ( 2020, 22, 12 ) ;
#120 = ORIENTED_EDGE ( 'NONE', *, *, #80, .F. ) ;
#121 = EDGE_CURVE ( 'NONE', #23, #62, #136, .T. ) ;
#122 = ORIENTED_EDGE ( 'NONE', *, *, #64, .F. ) ;
#123 = PLANE ( 'NONE',  #77 ) ;
#124 = DESIGN_CONTEXT ( 'detailed design', #110, 'design' ) ;
#125 = FACE_OUTER_BOUND ( 'NONE', #49, .T. ) ;
#126 = AXIS2_PLACEMENT_3D ( 'NONE', #91, #106, #6 ) ;
#127 = PRODUCT_DEFINITION ( 'UNKNOWN', '', #19, #124 ) ;
#128 = DIRECTION ( 'NONE',  ( -1.000000000000000000, -0.000000000000000000, -0.000000000000000000 ) ) ;
#129 = CARTESIAN_POINT ( 'NONE',  ( -1.187907395172932594E-15, 1.555301434917138433E-15, -12.69999999999999929 ) ) ;
#130 = APPROVAL_ROLE ( '' ) ;
#131 = CC_DESIGN_PERSON_AND_ORGANIZATION_ASSIGNMENT ( #117, #69, ( #19 ) ) ;
#132 = PERSON_AND_ORGANIZATION ( #162, #79 ) ;
#133 = DATE_AND_TIME ( #18, #147 ) ;
#134 = APPROVAL_ROLE ( '' ) ;
#135 = EDGE_LOOP ( 'NONE', ( #51, #35 ) ) ;
#136 = CIRCLE ( 'NONE', #76, 12.69999999999999929 ) ;
#137 = CC_DESIGN_APPROVAL ( #73, ( #92 ) ) ;
#138 = DIRECTION ( 'NONE',  ( 0.000000000000000000, 0.000000000000000000, 1.000000000000000000 ) ) ;
#139 = CARTESIAN_POINT ( 'NONE',  ( 1.999999999999998224, 0.000000000000000000, 0.000000000000000000 ) ) ;
#140 = CYLINDRICAL_SURFACE ( 'NONE', #89, 12.69999999999999929 ) ;
#141 = ADVANCED_FACE ( 'NONE', ( #26 ), #85, .F. ) ;
#142 = DIRECTION ( 'NONE',  ( 0.000000000000000000, 0.000000000000000000, 1.000000000000000000 ) ) ;
#143 = CC_DESIGN_PERSON_AND_ORGANIZATION_ASSIGNMENT ( #88, #170, ( #92 ) ) ;
#144 = CARTESIAN_POINT ( 'NONE',  ( 1.999999999999999112, 12.69999999999999929, 0.000000000000000000 ) ) ;
#145 = SHAPE_DEFINITION_REPRESENTATION ( #163, #58 ) ;
#146 = COORDINATED_UNIVERSAL_TIME_OFFSET ( 8, 0, .AHEAD. ) ;
#147 = LOCAL_TIME ( 17, 26, 29.00000000000000000, #158 ) ;
#148 = SECURITY_CLASSIFICATION_LEVEL ( 'unclassified' ) ;
#149 = CC_DESIGN_PERSON_AND_ORGANIZATION_ASSIGNMENT ( #8, #53, ( #127 ) ) ;
#150 = COORDINATED_UNIVERSAL_TIME_OFFSET ( 8, 0, .AHEAD. ) ;
#151 = APPROVAL ( #173, 'UNSPECIFIED' ) ;
#152 = CC_DESIGN_DATE_AND_TIME_ASSIGNMENT ( #55, #100, ( #127 ) ) ;
#153 = FACE_OUTER_BOUND ( 'NONE', #84, .T. ) ;
#154 = CARTESIAN_POINT ( 'NONE',  ( -1.187907395172932594E-15, 0.000000000000000000, 0.000000000000000000 ) ) ;
#155 = DIRECTION ( 'NONE',  ( 0.000000000000000000, 0.000000000000000000, 1.000000000000000000 ) ) ;
#156 = CARTESIAN_POINT ( 'NONE',  ( 0.000000000000000000, 0.000000000000000000, 0.000000000000000000 ) ) ;
#157 = DIRECTION ( 'NONE',  ( 0.000000000000000000, 0.000000000000000000, -1.000000000000000000 ) ) ;
#158 = COORDINATED_UNIVERSAL_TIME_OFFSET ( 8, 0, .AHEAD. ) ;
#159 = VECTOR ( 'NONE', #167, 1000.000000000000000 ) ;
#160 = CC_DESIGN_PERSON_AND_ORGANIZATION_ASSIGNMENT ( #22, #169, ( #107 ) ) ;
#161 = MECHANICAL_CONTEXT ( 'NONE', #54, 'mechanical' ) ;
#162 = PERSON ( 'UNSPECIFIED', 'UNSPECIFIED', 'UNSPECIFIED', ('UNSPECIFIED'), ('UNSPECIFIED'), ('UNSPECIFIED') ) ;
#163 = PRODUCT_DEFINITION_SHAPE ( 'NONE', 'NONE',  #127 ) ;
#164 = ADVANCED_FACE ( 'NONE', ( #153 ), #5, .T. ) ;
#165 = FACE_OUTER_BOUND ( 'NONE', #135, .T. ) ;
#166 = CC_DESIGN_APPROVAL ( #151, ( #19 ) ) ;
#167 = DIRECTION ( 'NONE',  ( -1.000000000000000000, -0.000000000000000000, -0.000000000000000000 ) ) ;
#168 = DIRECTION ( 'NONE',  ( 0.000000000000000000, 0.000000000000000000, 1.000000000000000000 ) ) ;
#169 = PERSON_AND_ORGANIZATION_ROLE ( 'design_owner' ) ;
#170 = PERSON_AND_ORGANIZATION_ROLE ( 'classification_officer' ) ;
#171 = CALENDAR_DATE ( 2020, 22, 12 ) ;
#172 = CLOSED_SHELL ( 'NONE', ( #86, #164, #141, #108 ) ) ;
#173 = APPROVAL_STATUS ( 'not_yet_approved' ) ;
#174 = ORIENTED_EDGE ( 'NONE', *, *, #121, .F. ) ;
#175 = EDGE_LOOP ( 'NONE', ( #174, #93 ) ) ;
ENDSEC;
END-ISO-10303-21;
